  0
SECTION
  2
HEADER
  9
$ACADVER
  1
AC1009
  9
$INSBASE
 10
753.2753945160282
 20
206.15603
 30
0.0
  9
$EXTMIN
 10
753.2265301961108
 20
206.15603
 30
0.0
  9
$EXTMAX
 10
783.054759803889
 20
253.4124529999999
 30
0.0
  9
$LIMMIN
 10
0.0
 20
0.0
  9
$LIMMAX
 10
420.0
 20
297.0
  9
$ORTHOMODE
 70
     0
  9
$REGENMODE
 70
     1
  9
$FILLMODE
 70
     1
  9
$QTEXTMODE
 70
     0
  9
$MIRRTEXT
 70
     1
  9
$DRAGMODE
 70
     2
  9
$LTSCALE
 40
1.0
  9
$OSMODE
 70
     0
  9
$ATTMODE
 70
     1
  9
$TEXTSIZE
 40
0.2
  9
$TRACEWID
 40
0.05
  9
$TEXTSTYLE
  7
STANDARD
  9
$CLAYER
  8
0
  9
$CELTYPE
  6
BYLAYER
  9
$CECOLOR
 62
   256
  9
$DIMSCALE
 40
1.0
  9
$DIMASZ
 40
0.18
  9
$DIMEXO
 40
0.0625
  9
$DIMDLI
 40
0.3799999999999999
  9
$DIMRND
 40
0.0
  9
$DIMDLE
 40
0.0
  9
$DIMEXE
 40
0.18
  9
$DIMTP
 40
0.0
  9
$DIMTM
 40
0.0
  9
$DIMTXT
 40
0.18
  9
$DIMCEN
 40
0.09
  9
$DIMTSZ
 40
0.0
  9
$DIMTOL
 70
     0
  9
$DIMLIM
 70
     0
  9
$DIMTIH
 70
     1
  9
$DIMTOH
 70
     1
  9
$DIMSE1
 70
     0
  9
$DIMSE2
 70
     0
  9
$DIMTAD
 70
     0
  9
$DIMZIN
 70
     0
  9
$DIMBLK
  1

  9
$DIMASO
 70
     0
  9
$DIMSHO
 70
     0
  9
$DIMPOST
  1

  9
$DIMAPOST
  1

  9
$DIMALT
 70
     0
  9
$DIMALTD
 70
     2
  9
$DIMALTF
 40
25.39999999999999
  9
$DIMLFAC
 40
1.0
  9
$DIMTOFL
 70
     0
  9
$DIMTVP
 40
0.0
  9
$DIMTIX
 70
     0
  9
$DIMSOXD
 70
     0
  9
$DIMSAH
 70
     0
  9
$DIMBLK1
  1

  9
$DIMBLK2
  1

  9
$DIMSTYLE
  2
*UNNAMED
  9
$DIMCLRD
 70
     0
  9
$DIMCLRE
 70
     0
  9
$DIMCLRT
 70
     0
  9
$DIMTFAC
 40
1.0
  9
$DIMGAP
 40
0.09
  9
$LUNITS
 70
     2
  9
$LUPREC
 70
     4
  9
$SKETCHINC
 40
0.1
  9
$FILLETRAD
 40
0.0
  9
$AUNITS
 70
     0
  9
$AUPREC
 70
     0
  9
$MENU
  1
acad
  9
$ELEVATION
 40
0.0
  9
$PELEVATION
 40
0.0
  9
$THICKNESS
 40
0.0
  9
$LIMCHECK
 70
     0
  9
$BLIPMODE
 70
     0
  9
$CHAMFERA
 40
0.0
  9
$CHAMFERB
 40
0.0
  9
$SKPOLY
 70
     0
  9
$TDCREATE
 40
2449035.671626157
  9
$TDUPDATE
 40
2449393.452808449
  9
$TDINDWG
 40
0.0009718750
  9
$TDUSRTIMER
 40
0.0009718750
  9
$USRTIMER
 70
     1
  9
$ANGBASE
 50
0.0
  9
$ANGDIR
 70
     0
  9
$PDMODE
 70
     3
  9
$PDSIZE
 40
0.0
  9
$PLINEWID
 40
0.0
  9
$COORDS
 70
     0
  9
$SPLFRAME
 70
     0
  9
$SPLINETYPE
 70
     6
  9
$SPLINESEGS
 70
     8
  9
$ATTDIA
 70
     0
  9
$ATTREQ
 70
     1
  9
$HANDLING
 70
     0
  9
$HANDSEED
  5
0
  9
$SURFTAB1
 70
     6
  9
$SURFTAB2
 70
     6
  9
$SURFTYPE
 70
     6
  9
$SURFU
 70
     6
  9
$SURFV
 70
     6
  9
$UCSNAME
  2

  9
$UCSORG
 10
0.0
 20
0.0
 30
0.0
  9
$UCSXDIR
 10
1.0
 20
0.0
 30
0.0
  9
$UCSYDIR
 10
0.0
 20
1.0
 30
0.0
  9
$PUCSNAME
  2

  9
$PUCSORG
 10
0.0
 20
0.0
 30
0.0
  9
$PUCSXDIR
 10
1.0
 20
0.0
 30
0.0
  9
$PUCSYDIR
 10
0.0
 20
1.0
 30
0.0
  9
$USERI1
 70
     0
  9
$USERI2
 70
     0
  9
$USERI3
 70
     0
  9
$USERI4
 70
     0
  9
$USERI5
 70
     0
  9
$USERR1
 40
0.0
  9
$USERR2
 40
0.0
  9
$USERR3
 40
0.0
  9
$USERR4
 40
0.0
  9
$USERR5
 40
0.0
  9
$WORLDVIEW
 70
     1
  9
$SHADEDGE
 70
     3
  9
$SHADEDIF
 70
    70
  9
$TILEMODE
 70
     1
  9
$MAXACTVP
 70
    16
  9
$PINSBASE
 10
0.0
 20
0.0
 30
0.0
  9
$PLIMCHECK
 70
     0
  9
$PEXTMIN
 10
1.000000000000000E+20
 20
1.000000000000000E+20
 30
1.000000000000000E+20
  9
$PEXTMAX
 10
-1.000000000000000E+20
 20
-1.000000000000000E+20
 30
-1.000000000000000E+20
  9
$PLIMMIN
 10
0.0
 20
0.0
  9
$PLIMMAX
 10
12.0
 20
9.0
  9
$UNITMODE
 70
     0
  9
$VISRETAIN
 70
     0
  9
$PLINEGEN
 70
     0
  9
$PSLTSCALE
 70
     0
  9
$TREEDEPTH
 70
  3020
  9
$DWGCODEPAGE
  3
undefined
  0
ENDSEC
  0
SECTION
  2
TABLES
  0
TABLE
  2
VPORT
 70
     6
  0
VPORT
  2
*ACTIVE
 70
     0
 10
0.0
 20
0.0
 11
1.0
 21
1.0
 12
785.8994070208474
 22
231.7299381075914
 13
0.0
 23
0.0
 14
1.0
 24
1.0
 15
10.0
 25
10.0
 16
0.0
 26
0.0
 36
1.0
 17
0.0
 27
0.0
 37
0.0
 40
51.14781621518271
 41
1.275675675675675
 42
50.0
 43
0.0
 44
0.0
 50
0.0
 51
0.0
 71
     0
 72
   100
 73
     1
 74
     0
 75
     0
 76
     0
 77
     0
 78
     0
  0
VPORT
  2
G-AF4R
 70
     0
 10
0.0
 20
0.0
 11
0.75
 21
1.0
 12
210.0
 22
185.4098669999999
 13
0.0
 23
0.0
 14
1.0
 24
1.0
 15
10.0
 25
10.0
 16
0.0
 26
0.0
 36
1.0
 17
0.0
 27
0.0
 37
0.0
 40
370.8197339999999
 41
1.132626
 42
50.0
 43
0.0
 44
0.0
 50
0.0
 51
0.0
 71
     0
 72
   100
 73
     1
 74
     1
 75
     1
 76
     1
 77
     0
 78
     0
  0
VPORT
  2
G-AF4R
 70
     0
 10
0.75
 20
0.0
 11
1.0
 21
0.333333
 12
210.0
 22
182.3023699999999
 13
0.0
 23
0.0
 14
1.0
 24
1.0
 15
10.0
 25
10.0
 16
0.0
 26
0.0
 36
1.0
 17
0.0
 27
0.0
 37
0.0
 40
364.6047399999999
 41
1.151932
 42
50.0
 43
0.0
 44
0.0
 50
0.0
 51
0.0
 71
     0
 72
   100
 73
     1
 74
     1
 75
     1
 76
     1
 77
     0
 78
     0
  0
VPORT
  2
G-AF4R
 70
     0
 10
0.75
 20
0.333333
 11
1.0
 21
0.666667
 12
210.0
 22
182.3023699999999
 13
0.0
 23
0.0
 14
1.0
 24
1.0
 15
10.0
 25
10.0
 16
0.0
 26
0.0
 36
1.0
 17
0.0
 27
0.0
 37
0.0
 40
364.6047399999999
 41
1.151932
 42
50.0
 43
0.0
 44
0.0
 50
0.0
 51
0.0
 71
     0
 72
   100
 73
     1
 74
     1
 75
     1
 76
     1
 77
     0
 78
     0
  0
VPORT
  2
G-AF4R
 70
     0
 10
0.75
 20
0.666667
 11
1.0
 21
1.0
 12
210.0
 22
184.2626099999999
 13
0.0
 23
0.0
 14
1.0
 24
1.0
 15
10.0
 25
10.0
 16
0.0
 26
0.0
 36
1.0
 17
0.0
 27
0.0
 37
0.0
 40
368.5252209999999
 41
1.139678
 42
50.0
 43
0.0
 44
0.0
 50
0.0
 51
0.0
 71
     0
 72
   100
 73
     1
 74
     1
 75
     1
 76
     1
 77
     0
 78
     0
  0
ENDTAB
  0
TABLE
  2
LTYPE
 70
     3
  0
LTYPE
  2
CONTINUOUS
 70
    64
  3
Solid line
 72
    65
 73
     0
 40
0.0
  0
LTYPE
  2
GEN
 70
    64
  3
----------------------
 72
    65
 73
     2
 40
10000000000.0
 49
0.0
 49
10000000000.0
  0
LTYPE
  2
ITEM-STRICHPUNKT
 70
    64
  3
__ . __ . __
 72
    65
 73
     4
 40
3.6
 49
2.399999999999999
 49
-0.6
 49
0.0
 49
-0.6
  0
ENDTAB
  0
TABLE
  2
LAYER
 70
     4
  0
LAYER
  2
0
 70
    64
 62
     7
  6
GEN
  0
LAYER
  2
ITEM_50
 70
    64
 62
     7
  6
CONTINUOUS
  0
LAYER
  2
ITEM_HILFE
 70
    64
 62
     3
  6
CONTINUOUS
  0
LAYER
  2
ITEM_STP
 70
    64
 62
     4
  6
ITEM-STRICHPUNKT
  0
ENDTAB
  0
TABLE
  2
STYLE
 70
     1
  0
STYLE
  2
STANDARD
 70
     0
 40
0.0
 41
1.0
 50
0.0
 71
     0
 42
3.5
  3
ISO8
  4

  0
ENDTAB
  0
TABLE
  2
VIEW
 70
     5
  0
VIEW
  2
1
 70
     0
 40
146.0
 10
113.5
 20
206.0
 41
207.0
 11
0.0
 21
0.0
 31
1.0
 12
0.0
 22
0.0
 32
0.0
 42
50.0
 43
0.0
 44
0.0
 50
0.0
 71
     0
  0
VIEW
  2
2
 70
     0
 40
128.0
 10
309.5
 20
218.0
 41
193.0
 11
0.0
 21
0.0
 31
1.0
 12
0.0
 22
0.0
 32
0.0
 42
50.0
 43
0.0
 44
0.0
 50
0.0
 71
     0
  0
VIEW
  2
3
 70
     0
 40
154.0
 10
127.0
 20
89.0
 41
220.0
 11
0.0
 21
0.0
 31
1.0
 12
0.0
 22
0.0
 32
0.0
 42
50.0
 43
0.0
 44
0.0
 50
0.0
 71
     0
  0
VIEW
  2
4
 70
     0
 40
67.0
 10
176.5
 20
43.5
 41
107.0
 11
0.0
 21
0.0
 31
1.0
 12
0.0
 22
0.0
 32
0.0
 42
50.0
 43
0.0
 44
0.0
 50
0.0
 71
     0
  0
VIEW
  2
5
 70
     0
 40
123.0
 10
207.0
 20
149.5
 41
184.0
 11
0.0
 21
0.0
 31
1.0
 12
0.0
 22
0.0
 32
0.0
 42
50.0
 43
0.0
 44
0.0
 50
0.0
 71
     0
  0
ENDTAB
  0
TABLE
  2
UCS
 70
     1
  0
UCS
  2
MB-BKS
 70
     0
 10
0.0
 20
0.0
 30
0.0
 11
1.0
 21
0.0
 31
0.0
 12
0.0
 22
1.0
 32
0.0
  0
ENDTAB
  0
TABLE
  2
APPID
 70
     1
  0
APPID
  2
ACAD
 70
    64
  0
ENDTAB
  0
TABLE
  2
DIMSTYLE
 70
     0
  0
ENDTAB
  0
ENDSEC
  0
SECTION
  2
BLOCKS
  0
ENDSEC
  0
SECTION
  2
ENTITIES
  0
LINE
  8
ITEM_STP
 10
778.06308
 20
246.074652
 30
0.0
 11
766.616032
 21
246.074652
 31
0.0
  0
LINE
  8
ITEM_STP
 10
772.1505129999999
 20
238.956324
 30
0.0
 11
772.1505129999999
 21
253.2912029999999
 31
0.0
  0
POLYLINE
  8
ITEM_50
 66
     1
 10
0.0
 20
0.0
 30
0.0
 70
     1
  0
VERTEX
  8
ITEM_50
 10
767.550513
 20
243.418841
 30
0.0
 50
90.0
  0
VERTEX
  8
ITEM_50
 10
772.1505129999999
 20
240.7630299999999
 30
0.0
 50
90.0
  0
VERTEX
  8
ITEM_50
 10
776.7505129999999
 20
243.418841
 30
0.0
 50
90.0
  0
VERTEX
  8
ITEM_50
 10
776.7505129999999
 20
248.730464
 30
0.0
 50
90.0
  0
VERTEX
  8
ITEM_50
 10
772.1505129999999
 20
251.386275
 30
0.0
 50
90.0
  0
VERTEX
  8
ITEM_50
 10
767.550513
 20
248.730464
 30
0.0
 50
90.0
  0
SEQEND
  8
ITEM_50
  0
POLYLINE
  8
ITEM_50
 66
     1
 10
0.0
 20
0.0
 30
0.0
 70
     1
  0
VERTEX
  8
ITEM_50
 10
768.050513
 20
243.707516
 30
0.0
 50
90.0
  0
VERTEX
  8
ITEM_50
 10
772.1505129999999
 20
241.3403799999999
 30
0.0
 50
90.0
  0
VERTEX
  8
ITEM_50
 10
776.2505129999999
 20
243.707516
 30
0.0
 50
90.0
  0
VERTEX
  8
ITEM_50
 10
776.2505129999999
 20
248.441788
 30
0.0
 50
90.0
  0
VERTEX
  8
ITEM_50
 10
772.1505129999999
 20
250.808924
 30
0.0
 50
90.0
  0
VERTEX
  8
ITEM_50
 10
768.050513
 20
248.441788
 30
0.0
 50
90.0
  0
SEQEND
  8
ITEM_50
  0
LINE
  8
ITEM_50
 10
772.1505129999999
 20
250.808924
 30
0.0
 11
772.1505129999999
 21
251.386275
 31
0.0
  0
LINE
  8
ITEM_50
 10
768.050513
 20
248.441788
 30
0.0
 11
767.550513
 21
248.730464
 31
0.0
  0
LINE
  8
ITEM_50
 10
776.2505129999999
 20
248.441788
 30
0.0
 11
776.7505129999999
 21
248.730464
 31
0.0
  0
LINE
  8
ITEM_50
 10
767.550513
 20
243.418841
 30
0.0
 11
768.050513
 21
243.707516
 31
0.0
  0
LINE
  8
ITEM_50
 10
772.1505129999999
 20
240.7630299999999
 30
0.0
 11
772.1505129999999
 21
241.3403799999999
 31
0.0
  0
LINE
  8
ITEM_50
 10
776.7505129999999
 20
243.418841
 30
0.0
 11
776.2505129999999
 21
243.707516
 31
0.0
  0
CIRCLE
  8
ITEM_50
 10
772.1505129999999
 20
246.074652
 30
0.0
 40
2.649999999999999
  0
LINE
  8
0
 10
782.1505129999999
 20
251.074652
 30
0.0
 11
782.1505129999999
 21
241.074652
 31
0.0
  0
LINE
  8
0
 10
754.1505129999999
 20
251.074652
 30
0.0
 11
754.1505129999999
 21
241.074652
 31
0.0
  0
LINE
  8
0
 10
755.1505129999999
 20
240.074652
 30
0.0
 11
781.1505129999999
 21
240.074652
 31
0.0
  0
LINE
  8
0
 10
781.1505129999999
 20
252.074652
 30
0.0
 11
755.1505129999999
 21
252.074652
 31
0.0
  0
LINE
  8
ITEM_STP
 10
762.1505129999999
 20
239.0154459999999
 30
0.0
 11
762.1505129999999
 21
253.4124529999999
 31
0.0
  0
ARC
  8
0
 10
755.1505129999999
 20
241.074652
 30
0.0
 40
1.0
 50
180.0
 51
270.0
  0
ARC
  8
0
 10
755.1505129999999
 20
251.074652
 30
0.0
 40
1.0
 50
90.0
 51
180.0
  0
ARC
  8
0
 10
781.1505129999999
 20
251.074652
 30
0.0
 40
1.0
 50
0.0
 51
90.0
  0
ARC
  8
0
 10
781.1505129999999
 20
241.074652
 30
0.0
 40
1.0
 50
270.0
 51
0.0
  0
LINE
  8
ITEM_50
 10
768.100519
 20
215.738839
 30
0.0
 11
768.169172
 21
215.670186
 31
0.0
  0
LINE
  8
ITEM_50
 10
777.7807769999999
 20
223.170186
 30
0.0
 11
780.1307769999999
 21
223.170186
 31
0.0
  0
LINE
  8
ITEM_50
 10
782.1307769999999
 20
209.170186
 30
0.0
 11
782.1307769999999
 21
221.170186
 31
0.0
  0
LINE
  8
ITEM_50
 10
780.1307769999999
 20
207.170186
 30
0.0
 11
756.1307769999999
 21
207.170186
 31
0.0
  0
ARC
  8
ITEM_50
 10
780.1307769999999
 20
221.170186
 30
0.0
 40
2.0
 50
0.0
 51
90.0
  0
ARC
  8
ITEM_50
 10
780.1307769999999
 20
209.170186
 30
0.0
 40
2.0
 50
270.0
 51
0.0
  0
ARC
  8
ITEM_50
 10
756.1307769999999
 20
209.170186
 30
0.0
 40
2.0
 50
180.0
 51
270.0
  0
ARC
  8
ITEM_50
 10
756.1307769999999
 20
221.170186
 30
0.0
 40
2.0
 50
90.0
 51
180.0
  0
LINE
  8
ITEM_50
 10
778.1307769999999
 20
214.670186
 30
0.0
 11
768.103294
 21
214.670186
 31
0.0
  0
LINE
  8
ITEM_50
 10
768.103294
 20
215.670186
 30
0.0
 11
778.1307769999999
 21
215.670186
 31
0.0
  0
LINE
  8
ITEM_50
 10
768.1053769999999
 20
214.670186
 30
0.0
 11
768.109908
 21
214.670186
 31
0.0
  0
LINE
  8
ITEM_50
 10
768.106603
 20
215.670186
 30
0.0
 11
768.109908
 21
215.670186
 31
0.0
  0
LINE
  8
ITEM_50
 10
754.1307769999999
 20
209.170186
 30
0.0
 11
754.1307769999999
 21
221.170186
 31
0.0
  0
ARC
  8
ITEM_50
 10
762.156333
 20
215.1774799999999
 30
0.0
 40
5.970633999999999
 50
344.8430979999999
 51
355.1259999999999
  0
ARC
  8
ITEM_50
 10
762.156333
 20
215.1774799999999
 30
0.0
 40
5.970633999999999
 50
4.733522999999999
 51
14.914639
  0
ARC
  8
ITEM_50
 10
762.102049
 20
215.1942329999999
 30
0.0
 40
5.970633999999999
 50
104.8430979999999
 51
134.9146389999999
  0
ARC
  8
ITEM_50
 10
762.0923759999999
 20
215.162893
 30
0.0
 40
5.970633999999999
 50
164.8430979999999
 51
194.9146389999999
  0
ARC
  8
ITEM_50
 10
762.114682
 20
215.138845
 30
0.0
 40
5.970633999999999
 50
224.8430979999999
 51
254.914639
  0
ARC
  8
ITEM_50
 10
762.1466599999999
 20
215.146139
 30
0.0
 40
5.970633999999999
 50
284.894497
 51
314.914639
  0
LINE
  8
ITEM_50
 10
764.9586639999999
 20
212.340524
 30
0.0
 11
766.371415
 21
210.927774
 31
0.0
  0
LINE
  8
ITEM_50
 10
765.9950529999999
 20
214.1344479999999
 30
0.0
 11
767.924329
 21
213.6175
 31
0.0
  0
LINE
  8
ITEM_50
 10
765.9949379999999
 20
216.2063499999999
 30
0.0
 11
767.924329
 21
216.7233279999999
 31
0.0
  0
LINE
  8
ITEM_50
 10
764.958436
 20
218.0000759999999
 30
0.0
 11
766.371415
 21
219.4130549999999
 31
0.0
  0
LINE
  8
ITEM_50
 10
763.164174
 20
219.034579
 30
0.0
 11
763.681688
 21
220.965969
 31
0.0
  0
LINE
  8
ITEM_50
 10
761.093736
 20
219.033229
 30
0.0
 11
760.5758599999999
 21
220.965969
 31
0.0
  0
LINE
  8
ITEM_50
 10
759.301811
 20
217.9973779999999
 30
0.0
 11
757.8861329999999
 21
219.4130549999999
 31
0.0
  0
LINE
  8
ITEM_50
 10
758.267646
 20
216.205
 30
0.0
 11
756.3332189999999
 21
216.7233279999999
 31
0.0
  0
LINE
  8
ITEM_50
 10
758.267532
 20
214.1357979999999
 30
0.0
 11
756.3332189999999
 21
213.6175
 31
0.0
  0
LINE
  8
ITEM_50
 10
759.301583
 20
212.3432229999999
 30
0.0
 11
757.8861329999999
 21
210.927774
 31
0.0
  0
LINE
  8
ITEM_50
 10
761.0936219999999
 20
211.307174
 30
0.0
 11
760.5758599999999
 21
209.374859
 31
0.0
  0
LINE
  8
ITEM_50
 10
763.1642879999999
 20
211.305824
 30
0.0
 11
763.6813519999999
 21
209.376114
 31
0.0
  0
LINE
  8
ITEM_50
 10
778.1307769999999
 20
215.670186
 30
0.0
 11
778.1307769999999
 21
214.670186
 31
0.0
  0
LINE
  8
ITEM_50
 10
763.6813519999999
 20
209.376114
 30
0.0
 11
763.681688
 21
209.374859
 31
0.0
  0
ARC
  8
ITEM_50
 10
762.134028
 20
215.2015269999999
 30
0.0
 40
5.970633999999999
 50
44.84309799999999
 51
74.390616
  0
LINE
  8
ITEM_50
 10
777.1307769999999
 20
223.170186
 30
0.0
 11
777.7807769999999
 21
223.170186
 31
0.0
  0
LINE
  8
ITEM_50
 10
756.1307769999999
 20
223.170186
 30
0.0
 11
777.0307769999999
 21
223.170186
 31
0.0
  0
LINE
  8
ITEM_50
 10
776.1307769999999
 20
224.0701859999999
 30
0.0
 11
776.1307769999999
 21
224.4701859999999
 31
0.0
  0
LINE
  8
ITEM_50
 10
776.1307769999999
 20
224.4701859999999
 30
0.0
 11
768.1307769999999
 21
224.4701859999999
 31
0.0
  0
LINE
  8
ITEM_50
 10
768.1307769999999
 20
224.4701859999999
 30
0.0
 11
768.1307769999999
 21
224.0701859999999
 31
0.0
  0
ARC
  8
ITEM_50
 10
777.0307769999999
 20
224.0701859999999
 30
0.0
 40
0.9
 50
180.0
 51
270.0
  0
ARC
  8
ITEM_50
 10
767.2307769999999
 20
224.0701859999999
 30
0.0
 40
0.9
 50
270.0
 51
0.0
  0
LINE
  8
ITEM_STP
 10
772.1307769999999
 20
206.15603
 30
0.0
 11
772.1307769999999
 21
225.300372
 31
0.0
  0
LINE
  8
ITEM_STP
 10
762.1307769999999
 20
208.11098
 30
0.0
 11
762.1307769999999
 21
222.5079859999999
 31
0.0
  0
LINE
  8
ITEM_STP
 10
754.7927819999999
 20
215.170186
 30
0.0
 11
779.2700429999999
 21
215.170186
 31
0.0
  0
POINT
  8
ITEM_HILFE
 10
772.1307769999999
 20
223.170186
 30
0.0
  0
POINT
  8
ITEM_HILFE
 10
772.1307769999999
 20
207.170186
 30
0.0
  0
POINT
  8
ITEM_HILFE
 10
762.1307769999999
 20
215.170186
 30
0.0
  0
POINT
  8
ITEM_HILFE
 10
754.1307769999999
 20
223.170186
 30
0.0
  0
POINT
  8
ITEM_HILFE
 10
754.1307769999999
 20
207.170186
 30
0.0
  0
POINT
  8
ITEM_HILFE
 10
782.1307769999999
 20
223.170186
 30
0.0
  0
POINT
  8
ITEM_HILFE
 10
782.1307769999999
 20
207.170186
 30
0.0
  0
POINT
  8
ITEM_HILFE
 10
772.1505129999999
 20
246.074652
 30
0.0
  0
POINT
  8
ITEM_HILFE
 10
754.1505129999999
 20
252.074652
 30
0.0
  0
POINT
  8
ITEM_HILFE
 10
782.1505129999999
 20
252.074652
 30
0.0
  0
POINT
  8
ITEM_HILFE
 10
754.1505129999999
 20
240.074652
 30
0.0
  0
POINT
  8
ITEM_HILFE
 10
782.1505129999999
 20
240.074652
 30
0.0
  0
POINT
  8
ITEM_HILFE
 10
762.1505129999999
 20
252.074652
 30
0.0
  0
POINT
  8
ITEM_HILFE
 10
762.1505129999999
 20
240.074652
 30
0.0
  0
LINE
  8
0
 10
763.682048
 20
220.9642589999999
 30
0.0
 11
763.6823839999999
 21
220.9655129999999
 31
0.0
  0
ARC
  8
0
 10
762.131473
 20
215.170186
 30
0.0
 40
4.0
 50
15.004272
 51
45.02964699999999
  0
ARC
  8
0
 10
762.131473
 20
215.170186
 30
0.0
 40
4.0
 50
314.9773999999999
 51
344.989418
  0
ARC
  8
0
 10
762.131473
 20
215.170186
 30
0.0
 40
4.0
 50
254.9731279999999
 51
284.963502
  0
ARC
  8
0
 10
762.131473
 20
215.170186
 30
0.0
 40
4.0
 50
194.986839
 51
224.9703529999999
  0
ARC
  8
0
 10
762.131473
 20
215.170186
 30
0.0
 40
4.0
 50
135.0226
 51
165.0105819999999
  0
ARC
  8
0
 10
762.131473
 20
215.170186
 30
0.0
 40
4.0
 50
75.02687199999999
 51
105.0364979999999
  0
LINE
  8
0
 10
763.682048
 20
220.9642589999999
 30
0.0
 11
763.6823839999999
 21
220.9655129999999
 31
0.0
  0
ENDSEC
  0
EOF
